TRUELOOK

TrueLook

Parte 2

El Arroz con leche!!  

e||---------0-------|----------0----|-0--1--0--------------| 
B||------1-----1--1-|----1--1-----3-|----------3--1--0--0--| 
G||·--0-------------|-0-------------|----------------------| 
D||·----------------|---------------|----------------------| 
A||-----------------|---------------|----------------------| 
E||-----------------|---------------|----------------------| 

e||---------------|--------0-----|--------0-----| 
B||---------0--1--|-----1-----1--|-----1-----3--| 
G||---0--2--------|--0-----------|--0-----------| 
D||---------------|--------------|--------------| 
A||---------------|--------------|--------------| 
E||---------------|--------------|--------------| 

e||---0--1--0--------------|-------------------|| 
B||------------3--1--0--0--|--------0--1-------|| 
G||------------------------|--0--2------------·|| 
D||------------------------|------------------·|| 
A||------------------------|-------------------|| 
E||------------------------|-------------------|| 



La cucaracha 
 


e--------1-5--------1-5--1-1-0-0----------------------- 
B--1-1-1------1-1-1--------------3-3-1----------------- 
G------------------------------------------------------ 
D------------------------------------------------------ 
A------------------------------------------------------ 
E------------------------------------------------------ 


e--------0-3--------0-3--8-10-8-6-5-3-1---------------- 
B--1-1-1------1-1-1------------------------------------ 
G------------------------------------------------------ 
D------------------------------------------------------ 
A------------------------------------------------------ 
E------------------------------------------------------ 


e------1-1-5-5-8-5--8-10-8-6-5-8-6-3------------------- 
B--1-1------------------------------------------------- 
G------------------------------------------------------ 
D------------------------------------------------------ 
A------------------------------------------------------ 
E------------------------------------------------------ 


e------0-0-3-3-6-3--8-10-8-6-5-3-1--------------------- 
B--1-1------------------------------------------------- 
G------------------------------------------------------ 
D------------------------------------------------------ 
A------------------------------------------------------ 
E------------------------------------------------------
 


El Himno a la Alegria
 suena bastante bien y divertido! 

CORREGIDO (ANTES ERA EL MISMO DE ARRIBA) grax DaXyK13 


||-0--0--1--3-|-3--1--0----|----------0-|-0----------|| 
||------------|----------3-|-1--1--3----|------3-----|| 
||------------|------------|------------|------------|| 
||------------|------------|------------|------------|| 
||------------|------------|------------|------------|| 
||------------|------------|------------|------------|| 


||-0--0--1--3-|-3--1--0----|----------0-|------------|| 
||------------|----------3-|-1--1--3----|-3----1-----|| 
||------------|------------|------------|------------|| 
||------------|------------|------------|------------|| 
||------------|------------|------------|------------|| 
||------------|------------|------------|------------|| 


||-----0—-----|-0-1--0-----|-0-1—0------|------------|| 
||-3-----1--3-|--------1--3|---------3--|1—3---------|| 
||------------|------------|------------|---------0--|| 
||------------|------------|------------|------------|| 
||------------|------------|------------|------------|| 
||------------|------------|------------|------------|| 


||-0—-0—-1—-3-|-3--1--0----|----------0-|------------|| 
||------------|----------3-|-1--1--3----|-3---1------|| 
||------------|------------|------------|------------|| 
||------------|------------|------------|------------|| 
||------------|------------|------------|------------|| 
||------------|------------|------------|------------|| 





Bueno ahora pasamos al... 



  Heavy Metal   




SIMPHONY OF DESTRUCTION Megadeth
 

(parte del verso) 

e------------------------------------------------------------ 
b----------------------------------------------------------- 
g----------------------------------------------------------- 
d----------------------------------------------------------- 
a-----------------3--2---2----3--2--2--------------3---2--2-- 
E-1----3----1-----1--0---0----1--0--0----1--3--1---1---0--0-- 



PARANOID Black Sabbath
 



intro creo q va 3 veces no me acuerdo 
e------------------------------------------------------------ 
b------------------------------------------------------------ 
g------------------------7-9-----7--------------------------- 
d----7/9--7/9--7/9---7-9-----7-9---9------------------------- 
a------------------------------------------------------------ 
E-----------------------------------------------------------
 


despues 


e-------------------------------------------------------------- 
b-------------------------------------------------------------- 
g----9-9-9-9-9-9-9-9-9-9-9-9-9-9-9-9--7-7-7-7-7-7-7-7--9--7--9- 
d----7-7-7-7-7-7-7-7-7-7-7-7-7-7-7-7--5-5-5-5-5-5-5-5--7--5--7- 
a-------------------------------------------------------------- 
E--------------------------------------------------------------
 


CRAZY TRAIN Ozzy Osbourne
 

les dejo la intro q es lo mas facil 


--------------------------------------| 
--------------------------------------| 
--------------------------------------| 
--------------------------------------| 
------4---5---4------2-0---0-2--------| 
--2-2---2---2---2--------4-----4-2-0--| 
la tocan seguido unas 3 veces 



BACK IN BLACK Ac/Dc
 


B--------------------------------------3-0----------------- 
G----------------------------------------------3-0------- 
D-------------5--5--5-----------------------------------2^3R2p0- 
A-----5------3--3--3--------7-7-7------------------------- 
E-----3-----------------------5-5-5------------------------- 



B------------------------------------- 
G--------------------------------------- 
D-------------5--5--5-------------------- 
A-----5------3--3--3--------7-7-7----- 
E-----3-----------------------5-5-5----7-4-7-5-7-6-7-7------- 


ONE (intro) Metallica
 gracias LocuraPro2 
e|---------------------------------------------------------------------------| 
b|---------------------------------------------------------------------------| 
g|------------------------------------------------------------------------0--| 
D|----4-----0--(0)------4-----0--(0)-------4-----0--(0)------4-----0--(0)----| 
A|-2-----2------------------------------2-----2------------------------------| 
E|-------------------3-----3------------------------------3-----3------------| 


e|--------------------------------------------------------------------| 
b|--------------------------------------------------------------------| 
g|--------------------------------------------------------------------| 
D|----4------0--(0)------4-----0--(0)------4-----0--(0)---------------| 
A|-2-----2------------0-----0--------------------------------2-----2--| 
E|--------------------------------------3-----3-----------0-----2-----| 



 ROCK  





BY THE WAY Red Hot Chili Pepers
 

solo la intro lo otro es complicado 



----x8-----x8-----x16 
e-------|------|-----| 
B-------|------|-----| 
G-------|------|-----| 
D--10---|--10--|-----| 
A---8---|---7--|--7--| 
E-------|------|--5--| 

----x8-----x8-----x12 
e-------|------|-----|--------------| 
B-------|------|-----|--------------| 
G-------|---9--|-----|--9-9---------| 
D--10---|--10--|-----|-------10-10--| 
A---8---|--10--|--7--|--------------| 
E-------|------|--5--|--------------| 
'Standin' in line...' 

----x8-----x8-----x16 
e-------|------|-----| 
B-------|------|-----| 
G-------|------|-----| 
D--10---|--10--|-----| 
A---8---|---7--|--7--| 
E-------|------|--5--| 

----x8-----x8-----x16 
e-------|------|------| 
B-------|------|---*--| 
G-------|---9--|---9--| 
D--10---|--10--|--10--| 
A---8---|--10--|---7--| 
E-------|------|------| 



EL VIEJO La Vela Puerca
 


(intro de trompeta pero en guitarra) 

e/------------------------------------ 
B/-------------------------------------- 
G/--9—-6-8-9—-6-8-6--------------------- 
D/-------------------9-7-6----6--------- 
A/-------------------------7----9-7--6-- 
E/-------------------------------------- 

e/------------------------------- 
B/------------------------------- 
G/--9—-6-8-9—-6-8-6-------------- 
D/-------------------9-7-6----6---- 
A/-------------------------7----9-- 
E/------------------------------- 

e/-------------------------------------- 
B/-------------------------------------- 
G/--9—-6-8-9—-6-8-6--------------------- 
D/-------------------9-7-6----6--------- 
A/-------------------------7----9-7--6-- 
E/-------------------------------------- 

e/--------------------------------- 
B/--------------------------------- 
G/--9—-6-8-9—-6-8-6---------------- 
D/-------------------9-7-6----6---- 
A/-------------------------7----9-- 
E/--------------------------------- 



EL VIEJO DE ARRIBA Bersuit
 

intro: 

e|------------------------------------------------------------------------------------| 
b|------------------------------------------------------------------------------------| 
g|------------------------------------------------------------------------------------| 
d|------------------9-9----------9--11-11--9---------12-12-11-11--9---------- 9-------| 
a|--9-9--11--12--9--------11-12----------------12-12----------------12----12------12--| 
E|------------------------------------------------------------------------------------| 

e|----------------|----------------------------------------------------| 
b|----------------|----------------------------------------------------| 
g|----------------|----------------------------------------------------| 
d|-------------11-|-----------------9-9----------9--11-11--9-----------| 
a|--11--9--8------|-9-9--11--12--9--------11-12----------------12------| 
E|----------------|----------------------------------------------------| 

e|--------------------------------------| 
b|--14-14-14-14-14-12-10-12-10--9-10----| 
g|--14-14-14-14-14-13-11-13-11-10-11----| 
d|--------------------------------------| 
a|--------------------------------------| 
E|--------------------------------------| 



TU CARCEL Enanitos Verdes
 

intro 

e –-0/2--2--0-----------0--2--2-----0---0-------------------0--0-- 
B -------------3----3--3---------3---------3--2----2--2--3-------- 
G ---------------------------------------------------------------- 
D ---------------------------------------------------------------- 
A ---------------------------------------------------------------- 
E ---------------------------------------------------------------- 

e -------------------------------------------------- 
B --2--3----3--2--0----0--0--0--0—-2-—3-—2—-3h5—-5-- 
G -------------------------------------------------- 
D -------------------------------------------------- 
A -------------------------------------------------- 
E -------------------------------------------------- 

e –-0/2--2--0-----------0--2--2-----0---0-------------------0--0-- 
B -------------3----3--3---------3---------3--2----2--2--3-------- 
G ---------------------------------------------------------------- 
D ---------------------------------------------------------------- 
A ---------------------------------------------------------------- 
E ---------------------------------------------------------------- 

e -------------------------------------------------- 
B --2--3----3--2--0----0--0--0--0—-2-—3-—2—-3h5—-5-- 
G -------------------------------------------------- 
D -------------------------------------------------- 
A -------------------------------------------------- 
E -------------------------------------------------- 

2º parte , si les gusto alguna dejen comentarios 






Añadir comentario acerca de esta página:
Su nombre:
Su página web:
Su mensaje:

¡Bienvenidos!.Nº de visitantes 20826 visitantes¡Que disfuten la pagina!
=> ¿Desea una página web gratis? Pues, haz clic aquí! <=