TRUELOOK

TrueLook

Parte 3

Higway To Hell 

AC/DC 


D#||--------------|-----------------------|-----------------------| 
A#||--------------|--------------3--3--3--|--------------3--3--3--| 
F#||-----2--2--2--|--------------2--2--0--|--------------2--2--0--| 
C#||-----2--2--2--|--------------0--0--0--|--------------0--0--0--| 
G#||-----0--0--0--|-----------------------|-----------------------| 
D#||--------------|-----------------------|-----------------------| 


--------------------------|------------------------|| X6 
-----3--3--3-----3--------|------------------------|| 
-----2--2--0-----2-----2--|--2---------------------|| 
-----0--0--0-----0-----2--|--2---------------------|| 
-----------------------0--|--0---------------------|| 
--------------------------|------------------------|| 

Despues repetis esto una vez mas y lo terminas con un... 

( esta es la parte que dice... Higwaaaaaaay to heeeel! )
 

-------------------------|--------------------------|------------------2--| 
-------------------------|--------------------------|--2---------------3--| 
-------------------------|--------------------------|--2------------0--2--| 
--2----2--2--2--2--2--2--|--2--2--2--2--2--2--2--2--|--2------------0--0--| 
--2----2--2--2--2--2--2--|--2--2--2--2--2--2--2--2--|--0------------------| 
--0----0--0--0--0--0--0--|--0--0--0--0--0--0--0--0--|---------------------| 


--(2)--(2)--(2)-----3----2----|------------------2--| 
--(3)--(3)--(3)-----3----3----|--2---------------3--| 
--(2)--(2)--(2)-----0----2----|--2------------0--2--| 
--(0)--(0)--(0)-----0----0----|--2------------0--0--| 
------------------------------|--0------------------| 

------------------------------|---------------------|

 

Black Dog 

Led Zeppelin 

aca va el riff... puff no puedo creeer que tanta magia entre en tan pocas lineas  

E|-------------------|--------------------------------------------| 
B|-------------------|--------------------------------------------| 
G|-------------5b----|--7-9--5h7p5-----5b-------------------------| 
D|-----5-6-7-------7-|-------------7-7----7--5-7-7-----------2--2-| 
A|---7-------7-------|-----------------------------5-7--3-5--0--0-| 
E|-------------------|--------------------------------------------| 

segunda parte...
 

E|---------------|--------------------|----------------------| 
B|---------------|--------------------|----------------------| 
G|-----------5b--|-7-9--5h7p5-----5b--|----------------------| 
D|---5-6-7------7|------------7-7----7|-5-7-7-----------2--2-| 
A|-7-------7-----|--------------------|-------5-7--3-5--0--0-| 
E|---------------|--------------------|----------------------| 

|---------------| |------------| 
|---------------| |------------| 
|---------------| |------------| 
|-----------5b--| |------------| 
|---5-6-7------7| |-----5-6-7-5| 
|-7-------7-----|X3 |-7--------| 

E|---------------|--------------------|----------------------| 
B|---------------|--------------------|----------------------| 
G|-----------5b--|-7-9--5h7p5-----5b--|----------------------| 
D|---5-6-7------7|------------7-7----7|-5-7-7-----------2--2-| 
A|-7-------7-----|--------------------|-------5-7--3-5--0--0-| 
E|---------------|--------------------|----------------------| 

Tercera parte
 
esta es la parte del " ohhh yeee ohhh yeeaa a - aaa - aaaahhh" 

E|---| |------|--------------| 
B|---| |------|--------------| 
G|---| |------|-2-4b6r4p2-4-2| 
D|-2-| |----2-|--------------| 
A|-0-| |-3b-0-|--------------| 
E|---| |------|--------------|X2 

|-------------| |---------------------| |-----|--------------| |---------------| 
|-------------| |---------------------| |-----|--------------| |---------------| 
|--------5--2-| |-2--4b6r4p2----------| |-----|-2-4b6r4p2-4-2| |--------5--2-2-| 
|----2---5--2-| |------------4-2----2-| |----2|--------------| |----2---5--2-2-| 
|-3b-0--0--0--| |----------------3b-0-| |-3b-0|--------------| |-3b-0--0-0---0-| 
|-------------| |---------------------| |-----|--------------|X2 |---------------| 
si no entendiste esta parte visita 
este link 

cuarta parte
 

E|------------|-------------|------------3-2-| |--------| 
B|------------|-------------|------------3-3-| |--------| 
G|-2------2---|-2---2/-5-2--|-2------2---0-2-| |----2---| 
D|-2------2---|-2---2/-5-2--|-2------2---0-0-| |----2---| 
A|-0------0---|-0---0-------|-0------0-------| |----0---| 
E|---3------2-|---3---------|---3b-----2-----|X4 |------| 


Blitzkrieg Bop 

RAMONES 

1|---------------------------------------------------------| 
2|---------------------------------------------------------| 
3|-------------7--7/9--9-9---------------------------------|x3 
4|--7--7-7-7-7-7--7/9--9-9---------------------------------| 
5|--7--7-7-7-7-5--5/7--7-7---------------------------------| 
6|--5--5-5-5-5---------------------------------------------| 



1|---------------------------------------------------------| 
2|---------------------------------------------------------| 
3|----------7-7--------------------------------------------| 
4|--7-7-7-7-7-7-7-7-7-7------------------------------------| 
5|--7-7-7-7-5-5-7-7-7-7------------------------------------| 
6|--5-5-5-5-----5-5-5-5------------------------------------| 
 

Purple Haze 

Jimy Hendrix

:------------------------------------------------------------------: 
:--------------------------------------------------------8---------: 
:---------------------------------------------------7--------------: 
:---------8---------8---------8---------8----7/9--------------7b---: 
:----7----7----7----7----7----7----7----7--------------------------: 
:----6---------6---------6---------6-------------------------------: 

:------------------------------------------------------------------: 
:--------------------------------------8---------------------------: 
:---------------------------------7--------------------------------: 
:----5----0----------------7/9--------------7b----5----0-----------: 
:--------------5----5/7-------------------------------------5------: 
:------------------------------------------------------------------: 

:------------------------------------------------------------------: 
:------------------------------------------------------------------: 
:------------------------------------------------------------------: 
:---------------------5----7/9----9/7----7----5----0---------------: 
:----5/7----5----7-------------------------------------------5----7: 
:-------------------------------------------------------3----------: 

:------------------------------------------------------------------: 
:-------------------------------------------------------8----8----8: 
:--------------------------------------7/9----9---------7----7----7: 
:----5----7/9----9/7----7----5----0---------------------6----6----6: 
:-------------------------------------------------------7----7----7: 
:--------------------------------------------------0---------------: 

:------------------------------------------------------------------: 
:----8----8--------------------------------------------------------: 
:----7----7--------------------------------------------------------: 
:----6----6--------------------------------------------------------: 
:----7----7----5----5----5----5----5/7----7----7----7----7---------: 
:--------------3----3----3----3----3/5----5----5----5----5----0----: 

:------------------------------------------------------------------: 
:----8----8----8----8----8-----------------------------------------: 
:----7----7----7----7----7-----------------------------------------: 
:----6----6----6----6----6-----------------------------------------: 
:----7----7----7----7----7----5----5----5----5----5/7----7----7----: 
:-----------------------------3----3----3----3----3/5----5----5----: 

:------------------------------------------------------------------: 
:-------------------8----8----8----8----8--------------------------: 
:-------------------7----7----7----7----7--------------------------: 
:-------------------6----6----6----6----6--------------------------: 
:----7----7---------7----7----7----7----7----5----5----5----5------: 
:----5----5----0-----------------------------3----3----3----3------: 

:-------------------------------------: 
:-------------------------------------: 
:-------------------------------------: 
:-------------------------------------: 
:----5/7----7----7----7----7-----: 

:----3/5----5----5----5----5-----:


T.N.T 

AC/DC 

INTRO 

E-|---|----|-----------------------|----------------- 
B-|---|----|-----------------------|----------------- 
G-|---|----|-----------------------|----------------- 
D-|-2-|----|-2---------------------|----------------- 
A-|-2-|----|-2-----5--5------------|----------------- 
E-|-0-|----|-0-----3--7---3--5--3--|----------------- 

VERSO (igual que la intro)
 
E--|------------------------|------------------------ 
B--|------------------------|------------------------ 
G--|------------------------|------------------------ 
D--|--2---------------------|------------------------ 
A--|--2-----5--5------------|------------------------ 
E--|--0-----3--7---3--5--3--|------------------------

Coro

E--|----------|-------------------------------------- 
B--|----------|-------------------------------------- 
G--|----------|-------------------------------------- 
D--|--------2-|-------------------------------------- 
A--|--7--5--2-|--5---7------------------------------- 
E--|--5--3--O-|--3---5-------------------------------
 



Mujer 

Cielo Razzo 

La intro 

e|--------------------------------------------------|---| 
B|--------------------------------------------------|---| 
G|--------------------------------------------------|---| 
D|-9-----9^10-9-7-9---9^10-9-7----7-9---7-----10-9-7|---| 
A|--10-10-----------10---------10-----8---8-7-------|---| 
E|--------------------------------------------------|---| 

e|--------------------------------------------------|---| 
B|--------------------------------------------------|---| 
G|--------------------------------------------------|---| 
D|-9-----9^10-9-7-9---9^10-9-7----7-9---7-----10-9-7|---| 
A|--10-10-----------10---------10-----8---8-7--------10-| 
E|--------------------------------------------------|---|
 

Pensar 

No te va a Gustar 

El riff se toca con octavas, para hacerlas bien hay que apagar 
la nota del medio con el dedo que tocas la tónica. 

E|----------------------------------------------------------| 
B|----------------------------------------------------------| 
G|-------9--8--5—-7x---------9--8--5—-77x-------9--8--5—-7x-| 
D|---7-------------------7------------------7---------------| 
A|-------7--6--3—-5x---------7--6--3—-55x-------7--6--3—-5x-| 
E|---5-------------------5------------------5---------------| 

E|------------------------------------| 
B|------------------------------------| 
G|------------------------------------|X2 
D|---77--99--1010--1111—-12-1212x-----| 
A|------------------------------------| 
E|---55—-77---88----99---10-1010x-----| 

y aca ese punteito raro... 

Am Dm G 
E|---5------------5--5--5--------8b8b-------| 
B|-------8--5--8-----------8--5-------------| 
G|------------------------------------------| 
D|------------------------------------------| 
A|------------------------------------------| 
E|------------------------------------------| 
Am Dm G 
E|---5-----------------------------------| 
B|------8--5-----5-----------------------| 
G|------------7-----7--7--5--------------|X2 
D|---------------------------7--5—-(5)---| 
A|---------------------------------------| 
E|---------------------------------------| 

 

 
School 

Nirvana 
(esa ")r" que aparece significa hacer un ligado, o sea cuando apretas el 5 bajas un poco el dedo sin dejar de apretar y lo soltas para que suene la 6ta al aire.) 
Intro
 
e---------------------------------------| 
b---------------------------------------| 
g---------------------------------------| 
d---------------------------------------| x8 
a------------)r-----)r------------------| 
e--0--0--0--5---0--5--0--0--0--0--0--5--| 
verso 
e---------------------------------------| 
b---------------------------------------| 
g---------------------------------------| 
d---------------------------------------| x4 
a------------)r-----)r------------------| 
e--0--0--0--5---0--5--0--0--0--0--0--5--| 

coro 
e------------------------------------0---0---0-0--0---0-0-0-0-0--------| 
b------------------------------------0---0---0-0--0---3-3-3-3-3--------| 
g--5---5--5-5--5---------------------x---x---x-x--x-0-2-2-2-2-2--------| 
d--5---5--5-5--5-0--7-7-7-7-7-7-7----2---2---2-2--2-0-0-0-0-0-0--------| 
a--3---3--3-3--3-0--7-7-7-7-7-7-7----2---2---2-2--2--------------------| 
e-------------------5-5-5-5-5-5-5----0---0---0-0--0--------------------| 

e-------------------------------| 
b-------------------------------| 
g--5----5--5-5--5---------------| 
d--5----5--5-5--5-0-7-7-7-7-7-7-| 
a--3----3--3-3--3-0-7-7-7-7-7-7-| 
e-------------------5-5-5-5-5-5-|
 

verso 
e---------------------------------------| 
b---------------------------------------| 
g---------------------------------------| 
d---------------------------------------| x6 
a------------)r-----)r------------------| 
e--0--0--0--5---0--5--0--0--0--0--0--5--|
 

coro 
e----------------------------------0---0---0-0--0---0-0-0-0-0--------| 
b----------------------------------0---0---0-0--0---3-3-3-3-3--------| 
g--5---5--5-5--5-------------------x---x---x-x--x-0-2-2-2-2-2--------| 
d--5---5--5-5--5-0--7-7-7-7-7-7----2---2---2-2--2-0-0-0-0-0-0--------| 
a--3---3--3-3--3-0--7-7-7-7-7-7----2---2---2-2--2--------------------| 
e-------------------5-5-5-5-5-5----0---0---0-0--0--------------------| 

e-------------------------------| 
b-------------------------------| 
g--5----5--5-5--5---------------| 
d--5----5--5-5--5-0-7-7-7-7-7-7-| 
a--3----3--3-3--3-0-7-7-7-7-7-7-| 
e-------------------5-5-5-5-5-5-|
 

puente: 
e---------------------------------| 
b-------------------------13-13---| 
g-------------------12----12-12---| 
d-------------11----11------------| x4 
a-------------10--x---------------| 
e--0--0--0------------------------|
 

You Really Got me 

Van Halen (cover del tema de The kinks ) 

D#||-------------------|-------------------------|-------------------------| 
A#||-------------------|------------------x-x----|------------------x-x----| 
F#||-------------------|--2--2-----2------x-x----|--2--2-----2------x-x----| 
C#||-------------------|--2--2-----2------x-x----|--2--2-----2------x-x----| 
G#||-------------------|--0--0-----0------x-x----|--0--0-----0------x-x----| 
D#||----------------3--|--------3-------------3--|--------3-------------3--| 

-------------------------|------------------------|--------------------------| 
------------------x-x----|------------------------|--------------------------| 
--2--2-----2------x-x----|--2--2-----2----2/------|--2--2-----2--x--x--x-----| 
--2--2-----2------x-x----|--2--2-----2----2/------|--2--2-----2--x--x--x-----| 
--0--0-----0------x-x----|--0--0-----0------------|--0--0-----0--------------| 
--------3-------------3--|--------3------------3--|--------3--------------3--| 

--------------------------|--------------------------|------------------------| 
--------------------------|--------------------------|------------------------| 
--2--2-----2--x--x--x-----|--2--2-----2--x--x--x-----|--2--2------------------| 
--2--2-----2--x--x--x-----|--2--2-----2--x--x--x-----|--2--2------------------| 
--0--0-----0--------------|--0--0-----0--------------|--0--0------------------| 
--------3--------------3--|--------3--------------3--|--------3b-3~----15/----|
 
Whole Lotta Love 

Led Zeppelin 

es asi de facil y se repite casi todo el tema 
e-|--------------------------|-----------------------------------|- 
B-|--------------------------|-----------------------------------|- 
G-|--------------------------|-----------------------------------|- 
D-|----------------0)----0)--|--9-------9-------9-------9--------|- 
A-|----------------5-----5---|--7-------7-------7-------7--------|- 
E-|-------------7-----7------|--0-0-0-0-0-0-0-0-0-0-0-0-0-0-0-0--|- 

la parte del "whoole lotta love" 
e-|---------------------------------|-----------------------------------|- 
B-|----------------------7--7-7--7--|-----------------------------------|- 
G-|----------------------7--7-7--7--|-----------------------------------|- 
D-|--9-------9-------9---7--7-7--7--|--9-------9-------9------0)----0)--|- 
A-|--7-------7-------7---5--5-5--5--|--7-------7-------7------5-----5---|- 
E-|--0-0-0-0-0-0-0-0-0-0------------|--0-0-0-0-0-0-0-0-0-0-7-----7------|-
 




Comentarios hacia esta página:
Comentado por:17-08-2011, 00:26 (UTC)
nosenimeinteresa
nosenimeinteresa
Offline

<b> Que alpedo XD </b>



Añadir comentario acerca de esta página:
Su nombre:
Su página web:
Su mensaje:

¡Bienvenidos!.Nº de visitantes 20826 visitantes¡Que disfuten la pagina!
=> ¿Desea una página web gratis? Pues, haz clic aquí! <=