TRUELOOK

TrueLook

Parte 1

IRON MAN de Black Sabbath 
G--------------------------------- 
D--------------------------------- 
A-2-5--5-7-7--109-109-109-5-5-7-7- 
E--------------------------------- (x7) 

G--------------------------------- 
D--------------------------------- 
A-----5--------------------------- 
E-7-7---7-7-6-555-04567----------- (x3) 

G--------------------------------- 
D--------------------------------- 
A-2-5--5-7-7--109-109-109-5-5-7-7- 
E--------------------------------- (x4) 

G--------------------------------------- 
D-------------------789------------789-- 
A-7---5-----567-789--------567-789------ 
E--------77-------------77-------------- (x2) 




FLACA de Andres Calamaro (intro)
 
e------------------------------------------------------------------ 
B--3-----------4------------5-----------3-1---3-----------4-------- 
G---4-2-0-2-4----4-2-0-2-4----4-2-0-2-4-----4---4-2-0-2-4---4-2-0-- 
D------------------------------------------------------------------ 
A------------------------------------------------------------------ 
E------------------------------------------------------------------ 

SUNSHINE OF YOUR LOVE de Cream
 
1: 
e------------------------------------------------- 
B------------------------------------------------- 
G------------------------------------------------- 
D------12--12---10---12--------------------------- 
A------------------------12--11--10------b8------- 
E------------------------------------10------10--- 
2: 
e------------------------------------------------- 
B------------------------------------------------- 
G------12--12---10---12--------------------------- 
D------------------------12--11--10------b8------- 
A------------------------------------10------10--- 
E------------------------------------------------- 



El Feliz Cumpleaños o El Payaso Plin Plin / SI... ES LA MISMA CANCION! 

(grax por la correccion!) 

e----------1-0---------3-1-----8-5-1-1--0---6-6-5-1-3--1- 
B-1-1-3--1-----1-1-3-1-----1-1------------3-------------- 


INSPECTOR GADGET Muy divertida!
 
1|------------------------------------------ 
2|---------------------------------------3-2 
3|----------------------------------4-3----- 
4|------0-2-4--0-3---2-0------0-2-4--------- 
5|--2-4------------4-----2-4---------------- 
6|------------------------------------------ 


HUMO SOBRE EL AGUA de Deep Purple re facil! 

La Pueden hacer con cualquier cuerda siguiendo este parton: 

|-0-3-5---0-3-6-5---0-3-5-3-0-------- 

Suena muy Bien usando las cuerdas Nº 3 y 4 juntas! 


SATISFACTION de los Rolling Stones 


e------------------------------------------------- 
B------------------------------------------------- 
G------------------------------------------------- 
D------------------------------------------------- 
A------------------------------------------------- 
E---2--2---2-4-5--555-4444------------------------ 

y asi se repite... (sirve cn cualquier cuerda) 



Guns N' Roses - Sweet Child O' Mine gracias: parcel! 
E|---------3--2------------3--2-------------------| 
B|---3----------3----3----------3-----------------| 
G|-----3-2--3----------3-2--3-------------------| 
D|-0--------------0---------------0---------------| 
A|--------------------------------------------------| 

E|--------------------------------------------------| 

Disfrutenlas  Dejen comentarios si les gusto alguna






Añadir comentario acerca de esta página:
Su nombre:
Su página web:
Su mensaje:

¡Bienvenidos!.Nº de visitantes 20826 visitantes¡Que disfuten la pagina!
=> ¿Desea una página web gratis? Pues, haz clic aquí! <=